Jak zahrát: Complete Control (TAB)

14. dubna 2017 v 20:05 | C Jay |  Kytarový koutek
Tabulatury sem moc nedávám, protože tenhle blog není jen o kytaristech, navíc existuje spousta jiných vhodnějších webů. Complete Control sem ale dát musím z jehodno důvodu: i když na internetu najdete spoustu tabulatur, ani jedna není úplně správná. Podívejte se na tuhle a získáte kompletní kontrolu nad tímhle skvělým songem!



Tohle video, kde hraje jenom originální kytara je skvělým pomocníkem.

NA ÚVOD:
Tak jako na většinu rockových skladeb není ani pro Complete Control potřeba většího umění než power akordů. Rytmickou sekci Joea Strummera tvoří těchto pět akordů:

...........E...... B....... C# .......A .......D

G---------9--------------------------------------7--
D---------9--------9--------11--------7--------7---
A---------7--------9--------11--------7--------5---
E-------------------7--------9---------5-------------

Určitě vám neuniklo, že akordy B a C# nestojí v klasické pozici. Výše načrtnuté uspořádání je zde výhodnější, protože kytarista nemusí například pro přechod mezi akordem B a E jezdit přes celý krk kytary. Toto uspořádání je pro Clash respektive Joea Strummera typické a využívá ho ve většině dalších songů.

INTRO:
Song začíná energickým a působivým kytarovým intrem Joea Strummera. Na koncertech ho sice hraje Mick, ale drsný zvuk Joeova Telecasteru je na studiové verzi nezaměnitelný.

e----------------------------------------------------------
B-----------------------------------------------10-9-9---
G-9-9--9-9-9-9----9-------9-9-9--9-9-9-9--9-9-9---
D-9-9--9-9-9-9-6-9-------9-9-9--9-9-9-9--9-9-9----
A-7-7--7-7-7-7-7-7-------7-7-7--7-7-7-7-------------
E----------------------------------------------------------

SLOKA:
e--------------------------------------------------------------
B--------------------------------------------------------------
G-9-9--9-9-9-9---9---------------------9-9-9-9-9-9-9-9-
D-9-9--9-9-9-9-6-9-9-9-9-9-9-9-9-9-9-9-9-9-9-9-9-9-
A-7-7--7-7-7-7-7-7-9-9-9-9-9-9-9-9-7-7-7-7-7-7-7-7-
E----------------------7-7-7-7-7-7-7-7---------------------

REFRÉN:
e-----------------------------------------------------------------
B----------------------------------------------------------------
G------------------9---------------------------------------------
D-11----7----9---9---11----7----9-9-9-9-9-9-9-9-9-9-9--
A-11----7----9---7---11----7----9-9-9-9-9-9-9-9-9-9-9--
E--9----5----7---------9-----5----7-7-7-7-7-7-7-7-7-7-7-

Tohle je Mickův part v refrénu. Je to spíš taková frajeřinka, protože v originální nahrávce není tahle část vůbec slyšet. Můžete ho ale zaregistrovat v úvodním videu.

e------------2-----4--------------------7-----------------
B--2-----------4-0--------------2--------------------------
G-------2-----------------------------2--------------------
D-----------------------------------------------------------
A-----------------------------------------------------------
E------------------------------------------------------------

SÓLO:
Pod sólem hraje jako podklad sloka a refrén. Sólo jsem netaboval, a nechci ho zbytečně kopírovat z jiných stránek, kde je dobře zaznamenané. V tomto odkazu najdete jak ústřední, tak závěrečné sólo. Pro správnou hru můžete opět sledovat úvodní video.

BRIDGE:
Na studiové nahrávce hraje Joe tuhle pasáž čtyřikrát.
e--------------------------------------------------------------------------
B--------7----------5-------------------10----------5---------------------
G-----8----------6-------------------11----------6------------------------
D--9----------7----------11------12----------7------------9----9--9--9--
A-------------------------11--------------------------------9----9--9--9--
E-------------------------9----------------------------------7----7--7--7-

Mick ve třetím a čtvrtém opakování přidává tuhle jednoduchou vyhrávku.
e------------------------------------------------------------------------------------------
B------------------------------------------------------------------------------------------
G------14p13---14p13---14p13---14p13---14p13---14p13---14p13---14p13---
D---14-------14-------14------14-------14-------14-------14-------------------------
A------------------------------------------------------------------------------------------
E------------------------------------------------------------------------------------------

OUTRO:
e-------------------------------------------------------------------------------------------------------------------
B-------------------------------------------------------------------------------------------------------------------
G----------------------------------------------------------7--7-7--7-7-7-------------------9--9--9--9--9--9---
D---9--9-9-9-9-9-7--7-7-7-7--11-11-11-11-11-11--7--7-7--7-7-7--7--7-7-7-7-7--9--9--9--9--9--9---
A---9--9-9-9-9-9-7--7-7-7-7--11-11-11-11-11-11--5--5-5--5-5-5--7--7-7-7-7-7--7--7--7--7--7--7---
E---7--7-7-7-7-7-5--5-5-5-5---9--9--9--9--9--9--9--------------------5--5-5-5-5-5-------------------------
 

Buď první, kdo ohodnotí tento článek.

Nový komentář

Přihlásit se
  Ještě nemáte vlastní web? Můžete si jej zdarma založit na Blog.cz.
 

Aktuální články

Reklama