Kytarový koutek: Rady pro začátečníky. Síla power akordu

11. února 2017 v 15:53 | C Jay |  Kytarový koutek
Po delší době tu máme pokračování článku věnovaného začátkům na kytaru. Po úvodních cvičeních s jednoduchými vyhrávkami můžeme přistoupit ke komplexnější hudbě. Když řeknu, že ke zvládnutí současné hudby nevyžadující zapojení víc jak pěti nástrojů stačí kytaristovi naučit se jedno akordové schéma, asi tomu těžko uvěříte. Ale je to pravda. Naučte se jeden akord a punková muzika vám začne říkat pane!


Řeč dnes bude o takzvaných power akordech. Méně často se můžeme setkat s počeštěným "silovým akordem". Jde o velice jednoduchou kytarovou techniku, kterou dnes využívá drtivá většina kytaristů. Power akord pravděpodobně vznikl z takzvaného rokenrolového akordu, o němž bude řeč příště, a poprvé se objevil už v padesátých letech. Masového rozšíření se ale dočkal až na začátku let sedmdesátých. Punkvou hudbu celkově vlastně tvoří jenom on. Obecně je power akord typický pro elektrickou kytaru, pokud z nějaké své oblíbené nahrávky uslyšíte kytaru akustickou, pravděpodobně hraje kytarista klasické akordy. Výjimku představuje například Macy's Day Parade od Green Day, akustický song tvořený power akordy.

Prstoklad
Power akord se hraje velmi jednoduše. Tvoří ho tři prsty - ukazovák, prsteník a malík. Ty drží struny podle níže uvedeného schématu.

e----------------------------------------
B---------------------------------------
G---------------------------------------
D----------------5-----malík----------
A----------------5-----prsteník-------
E----------------3-----ukazovák------

Strunu E, drží ukazovák, struny A a D prsteník a malík. Power akord existuje i v jednodušší variantě za použití pouze ukazováku a prsteníku, výše zobrazená verze má ale plnější zvuk a používá se častěji. Pro ještě plnější znění se někdy přidává i prostředník, takto:

e----------------------------------------
B---------------------------------------
G----------------4-----prostředník---
D----------------5-----malík----------
A----------------5-----prsteník-------
E----------------3-----ukazovák------

Fígl power akordu spočívá v tom, že toto třístrunné schéma jen stačí posouvat po hmatníku dolů a nahoru. Protože poloha na každém pražci tvoří jiný tón, mění se tím i zvuk každého akordu, který se jmenuje vždy podle tónu nejsilnější struny, kterou drží ukazovák. K tónu se přidává číslo 5 (například A5, D5, E5), aby bylo v akordových schématech jasné, že jde o power akord.
Tento akord se většinou hraje ve dvou hlavních úrovních - ukazovák drží buď strunu E… nebo vyšší A. Power akordy, kdy ukazovák začíná na struně D, existují, nejsou ale časté a většinou se hrají jen dvěma prsty. Silnou stránkou power akordu je fakt, že na ně můžete převádět jakoukoli skladbu hranou i klasickými kytarovými akordy. Melodie je stejná, power akord jen nemá tak plný zvuk, na akustickou kytaru se nehodí skoro vůbec.

Tabulatury
Schémata akordů se většinou zapisují do tabulatur, kde jsou akordy podobně rozepsány tak, jako ve schématech zde. Spousta lidí je ale líná tabulatury dělat. takže jen do textu napíší písmena akordů. To je začátečníkům k ničemu, protože se v akordech nevyznají. Abyste jako já nemuseli začínat jen na pár tabulaturách, dole najdete kompletní seznam klasických powerakord i s jejich názvem. Většinou se jeden akord dá hrát ve více polohách. Ve schématech najdete všechny používané. Akordy značené jako vysoké se používají méně (v punku je vlastně hrají pouze Clash a občas Ramones).

Power akord F5
klasický vysoký
G------------------------10--------
D------3-----------------10-------
A------3------------------8--------
E------1----------------------------

Power akord F#5
klasický vysoký
G------------------------11--------
D------4-----------------11-------
A------4------------------9--------
E------2----------------------------

Power akord G5
klasický vysoký
G------------------------12-------
D------5-----------------12-------
A------5-----------------10-------
E------3---------------------------

Power akord G#5
klasický vysoký (používá se velmi málo)
G------------------------13-------
D------6-----------------13-------
A------6-----------------11-------
E------4---------------------------


Power akord A5
klasický (oba prstoklady vytvoří týž zvuk). Prstoklad číslo dvě tvoří pouze ukazovák ležící přes obě struny.
G---------------------2--------
D------7--------------2---------
A------7----nebo---0---------
E------5------------------------

Power akord Bb
klasický
G--------------------3--------
D------8-------------3---------
A------8----nebo--1---------
E------6------------------------

Power akord B
klasický
G--------------------4--------
D------9-------------4---------
A------9----nebo--2---------
E------7------------------------

Power akord C
klasický
G------------------------5------
D------10---------------5-----
A------10------nebo--3------
E--------8----------------------

Power akord C#5
klasický
G------------------------6------
D------11---------------6-----
A------11------nebo--4------
E--------9----------------------

Power akord D5
klasický
B----------------------------------------3----
G------------------------7--------------2----
D------12---------------7--------------0----
A------12------nebo--5-----nebo---------
E ------10------------------------------------

Akord D#5
klasický
G------------------------8-----
D------13---------------8-----
A------13------nebo--6-----
E ------11---------------------

Power akord E5
klasický vysoký
G------------------------9------
D------2-----------------9------
A------2-----------------7------
E------0-------------------------

Cvičení
K plynulému zvládnutí hry je třeba naučit se power akord posouvat po hmatníku doleva a doprava… a nahoru a dolů. První případ se zvládne rychle, stačí se jen naučit držet prstoklad power akordu. Druhý vyžaduje trochu cviku, ale nejde o nic dlouho nepřekonatelného. Na tato cvičení jsou vhodné dva songy od Green Day.
Píseň Hitchin' A Ride z Nimroda tvoří power akordy pouze v jedné rovině. Tímhle získá hráč pevný a jistý prstoklad.

Sloka a mezihra bridge
e----------------------------------------------------------------------------------------------------------------
B---------------------------------------------------------------------------------------------------------------
G--------------------------------------------------------------------------------------------------------------
D---9--9-9-7--7-7-6--6-6-5-5-5-5-----------2--2-2-2-2-4--4-4--9--9-9-7--7-7-6--6-6-5-5-5-5-----
A---9--9-9-7--7-7-6--6-6-5-5-5-5-----------2--2-2-2-2-4--4-4--9--9-9-7--7-7-6--6-6-5-5-5-5----
E---7--7-7-5--5-5-4--4-4-3-3-3-3-----------0--0-0-0-0-2--2-2--7--7-7-5--5-5-4--4-4-3-3-3-3-----


Na procvičení akordů ve dvou rovinách je ideální naopak sloková kytarová linka písně Oh Love. Jde o pomalý song s jednoduchým schématem. Křížky znamenají tlumený tón. Dosáhnete ho tak, že se strun budete jen lehce dotýkat, struny tak nebudou moc vydávat zvuk.

e--------------------------------------------------------------------------------------------------------------
B--------------------------------------------------------------------------------------------------------------
G-------------------------6---------------6-6--6-6-6-6--6-6------------------------------------------------
D----x-x-6-6--x-x---x-6-6-6--x-x-x--6-6--6-6-6-6--6-6-6-6-------------------------------------------
A----x-x-6-6--x-x---x-4-6-6--x-x-x--4-4--4-4-4-4--4-4-6-6-------------------------------------------
E----x-x-4-4--x-x---x----4-4--x-x-x------------------------4-4------------------------------------------

Na závěr ještě jeden užitečný odkaz. Spoustu punkových tabulatur najdete na webové stránce Songsterr. Tyto tabulatury mají navíc jednu obrovskou výhodu - song si můžete pustit a společně s ním vám běží i akordy, které je potřeba pro zahrání melodie. Některé tabulatury jsou sice zbytečně složité… a některé nejsou správné, těch případů ale příliš není. Určitě můžu doporučit.
 

Buď první, kdo ohodnotí tento článek.

Nový komentář

Přihlásit se
  Ještě nemáte vlastní web? Můžete si jej zdarma založit na Blog.cz.
 

Aktuální články

Reklama