Kytarový koutek: Rady pro začátečníky. Jak začít s punkovou kytarou?

10. prosince 2016 v 13:22 | C Jay |  Kytarový koutek
Do Vánoc už není daleko a někteří z vás možná najdou pod vánočním stromkem jako dárek nějaký hudební nástroj - třeba kytaru. Nebo zvažujete tento dárek pro někoho jiného. Tímhle článkem vás chci podpořit, protože je to výborný nápad!


Je to tak. Začínající muzikant je nejistý, potřebuje povzbudit, aby se odhodlal. Už třeba z důvodu, že muzikantské vybavení není leckdy levná sranda. Často se ale dočká opaku, protože je zahlcen informacemi, co všechno musí nezbytně mít a umět, než vůbec nástroj vezme do ruky. Většina z nich samozřejmě není neopodstatněná, pro úplné začátečníky, jsou ale zatím zbytečná.
V tomhle článku bych chtěl na některé tyto zbytečnosti poukázat a také doporučit několik jednoduchých skladeb, na nichž se může dobře začít punková kytara.

Mýtus č. 1: Je nutná dokonalá znalost not, akordů a taktů
Nesmysl. Aspoň ze začátku. K nim se člověk dostane časem tak jako tak, pro začátečníka ale nemají význam, protože jim většinou nerozumí a znamenají nezáživná cvičení.

Mýtus č. 2: Vždy se začíná procvičováním základních akordů
Klasická tendence všech výukových příruček. Pokud hrajete na klasickou kytaru, asi jinou možnost nemáte, je to také nejuniverzálnější postup. Jenže cvičení akordů vám nic nedá. Ze správně zahraného akordu nebudete mít žádný pocit, navíc to dlouho trvá.

Mýtus č. 3: MUSÍTE pravidelně cvičit
Tohle mýtus není, dobrým hráčem na cokoli se člověk nestane bez cvičení. Vytáčí mě ale to slovo "musíte". Jak jako musíte? Co to je za slovo?! Jakmile něco musíte dělat, nebudete mít z cvičení nikdy tak dobrý pocit, jako když cvičit CHCETE.

Co skutečně potřebujete vědět
V praxi se na začátku skutečně neobejdete jen bez několika věcí: Předně musíte mít nástroj. Většinou se začíná na akustickou kytaru. Já osobně ale nevidím problém v tom začít rovnou na kytaru elektrickou, protože se k ní postupně stejně dopracujete. Elektrika na nějaké slušnější úrovni se cenou sice pohybuje někde úplně jinde, levná akustika ale taky nebývá dobré řešení, protože ty mají většinou struny tlusté jak lodní lana, šíleně vysoký dohmat, takže se na ně stejně moc hrát nedá. Lépe než kytaru kupovat je si ji od někoho vypůjčit a nejprve zkusit, jestli vás hra bude bavit a až pak si pořídit vlastní nástroj, třeba už rovnou elektrickou kytaru. K ní ani nepotřebujete zesilovač, ze začátku se dá hrát i bez něj. A díky tomu, že nezapojená elektrika není tak hlasitá jako akustika, nebudete s ní ani nikoho rušit. Navíc se na ní mnohé techniky hrají líp, např. bending/vytahování strun.
Pokud se přece jen rozhodnete akustiku koupit, neexistuje univerzální rada, jaký nástroj vybrat, s tím je lépe se poradit přímo s prodavačem, který je odborník a má přehled o tom, co prodává. Pokud nemáte více zkušenosti a nevyznáte se v parametrech kytar, určitě nekupujte nástroj přes internet, ale vyšetřete si čas a navštivte reálný obchod s hudebními nástroji. Vyvarujte se nakupování nástrojů v nespecializovaných ochodech, např. supermarketech. Tam jsou sice nástroje většinou levné, ale také za mnoho nestojí.
Kolik tedy vytáhnout z peněženky? Ani na to nemůžu odpovědět jednoznačně, pro někoho je určitá částka málo, pro někoho hodně. Nejlíp opět uděláte, když se zeptáte prodavače v obchodě. Ten vám poradí i s dalšími dvěma nezbytnými věcmi: ladičkou a trsátky. Můžete hrát i prsty, tato technika ale není ze začátku jednoduchá, lépe se začíná s trsátkem.
To je všechno. Už jen stačí znát ladění strun:

e - nejslabší struna
B - někdy se také označuje jako H
G -
D -
A -
E - nejsilnější struna

Pár tipů pro začátečníky
Učit se akordy nemá smysl, potrvá pár měsíců, než je ovládnete tak, aby vám dohromady vydaly nějakou melodii. Pro začátky na kytaru je nejlepší zkusit to s jednoduchými vyhrávkami na jednu nebo dvě struny. Žádné noty, takty. Jen si pusťte song, zaposlouchejte se do melodie a pak se ji snažte napodobit. Punkové songy jich nabízí spoustu, viz pár příkladů.
Čísla označují pole, na němž zmáčknete strunu. Právě tento druh zápisu (tabulatura) se stane vaším největším kamarádem pro prvních několik měsíců…


Jeden z velkých hitů prvního alba Costello Music má velmi jednoduchou melodii. Ta se sice hraje i akordy, dá se ale převést na ultra jednoduchou vyhrávku, jíž zvládnete jedním prstem:

e----------------------------------------------------------
B----------------------------------------------------------
G----------------------------------------------------------
D----------------------------------------------------------
A--3-3-0-0-3-3-0---3-3-0-0-3-3-0---3-3-0-0-3-3-0-
E-----------------------------------------------------------


Prostá a milá pecka, která hodně pomohla zvednout úroveň desce Combat Rock je založena na jednoduchém melodickém schématu. Můžete opět hrát jedním prstem, případně zapojit i dva (ukazovák a prsteník)

e-------------------------------------------------------------------------------
B-------------------------------------------------------------------------------
G-------------------------------------------------------------------------------
D--5-3-5-3-5-5----5-3-5-3-5-5-3-1---5-3-5-3-5-5----5-3-5-3-5-5-3-1-
A-------------------------------------------------------------------------------
E--------------------------------------------------------------------------------


Na vyhrávku dodnes populárního coveru z London Calling už sice člověk potřebuje dvě struny a větší rychlost, o nic těžkého ale nejde. Opět možné hrát jedním nebo dvěma prsty. Na tomhle riffu jsem začínal.

e-------------------------------------------------------------------------------
B-------------------------------------------------------------------------------
G-------------------------------------------------------------------------------
D--------------------------------------------------------------------------------
A------------0-0-1-0-----------0-0-1-0----------0-0-1-0----------0-0-1-0-
E--0-0-3-3------------0-0-3-3----------0-0-3-3----------0-0-3-3----------


Když už získáte jistější ruku, můžete se pustit i do tak slavného riffu jako v Come As You Are slavné desky Nevermind. Dvakrát ukradená vyhrávka má dvě části, které nejlépe procvičíte samostatně a poté je můžete spojit. Hraje se ukazovákem a prostředníkem. Jako mnoho písní Nirvany je i Come As You Are podlazená o jeden tón, to ale prozatím vůbec neřešte, zvukový rozdíl není nijak výrazný.

e--------------------------------------------------------------------------------------
B--------------------------------------------------------------------------------------
G--------------------------------------------------------------------------------------
D--------------------------------------------------------------------------------------
A-------------0---0------------2------2--------0---0-----------2---------------------
E--0-0-1-2----2---2-2-1----0---0-0---0-1-2---2---2-2-1--0---0-0---------------


Poslední řadová deska Dead Kennedys obsahuje tento song s působivou a nepříliš těžkou kytarovou vyhrávkou. Na ni už potřebujete tři prsty (ukazovák, prsteník a malík) a i obtížností stojí trochu výš než předešlé příklady, nejde ale o nic nepřekonatelného.

e----------------------------------------------------------------------------------------
B----------------------------------------------------------------------------------------
G--------------------------------------------------------------------------------3------
D--5------5----3---------------3-4-5--------5------5---3----------------3-------5--
A----5------------3----------3---------5-------5------------3----------3--------------
E-------3------------1-1--1---------------3-------3------------1-1--1----------------

Na první pohled složité, ale zdání klame. Základním předpokladem pro správné zahrání je správná poloha prstů. Ukazovák držte na struně E, prsteník na A a malík na D. Prsty srovnejte podle čísel v tabulatuře. Pro Chickenshit Confornist ji pak budete jen posouvat po hmatníku, konkrétně do tří poloh, viz následující schéma. Ukazuje, které schéma musíte držet a jen vybrnkáváte struny podle tabulatury a poslechu. Poslední dva tóny 3 a 5 se zahrajte ukazovákem a prsteníkem samostatně.

e---------------------------------------------------------------------------------------------------
B---------------------------------------------------------------------------------------------------
G-----------------------------------------------------------------------------------3---------------
D----5-------3---------------------4-5---------------------5------3-----------------5------------
A----5-------3---------------------4-5---------------------5------3------------------------------
E----3-------1----------------------2-3--------------------3------1-------------------------------

Toto schéma si dobře zapamatujte, ještě se vám bude hodit…

Jak vidíte, začít hrát na kytaru zase tak těžké není, takže směle do toho. Přeji hodně trpělivosti a brzkých úspěchů…
 

Buď první, kdo ohodnotí tento článek.

Nový komentář

Přihlásit se
  Ještě nemáte vlastní web? Můžete si jej zdarma založit na Blog.cz.
 

Aktuální články

Reklama