Kytarový koutek: Punkové L

29. října 2016 v 13:03 | C Jay |  Kytarový koutek
Dnešní článek Kytarového koutku se výjimečně nebude věnovat kytarovým portrétům. Zaměříme se v něm na jeden kytarový, respektive akordový, fenomén, který je vlastní nejen punkovým kapelám. Podívejme se na "punkové L".


Že jste o tom nikdy neslyšeli? Nedivím se vám, Já taky ne, ale teď se to změní! Když jsem se totiž učil hrát na kytaru power akordy, všiml jsem si, že jedno schéma se často opakuje. Začal jsem tomu říkat punkové L. Abych se tady nemusel pouštět do složitého vysvětlování, nejlépe to ukáže tabulatura:

e-------------------------------------------
B-------------------------------------------
G-------------5-5-5-5-7-7-7-7-7-7-7-7-
D---5-5-5-5-5-5-5-5-7-7-7-7-7-7-7-7-
A---5-5-5-5-3-3-3-3-5-5-5-5-5-5-5-5-
E---3-3-3-3-------------------------------

Vidíte sami, je to velmi jednoduché schéma složené konkrétně zde z power akordů G, C a D. Začíná se s géčkem, tedy ukazovák na třetím pražci struny E. Pak se jde o strunu níž na akord C, a nakonec do strany, v tomto případě na déčko.
Pokud se podíváte na tabulatury libovolných punkových songů (některé vybrané uvidíte na konci článku), tohle schéma leckde najdete. Jde také snad o jediné akordové schéma, které je zřetelně rozpoznatelné už sluchem a to i pro začínající kytaristy. Lze ho hrát v několika obměnách:

Klasické L:
e------------------------------------------
B------------------------------------------
G----------------------7-7-7-7-9-9-9-9-
D--7-7-7-7-7-7-7-7-7-7-7-7-9-9-9-9-
A--7-7-7-7-7-7-7-7-5-5-5-5-7-7-7-7-
E--5-5-5-5-5-5-5-5----------------------

Nejtypičtější a také dosud nejpoužívanější variantu punkového L jsme už viděli nahoře v obecném příkladu. Většinou má dvě hlavní podoby: nahoře zobrazená G-C-D nebo o dva pražce posunutá A-D-E. První případ je třeba úvodním riffem Jinx od Green Day. Druhé schéma, zde zobrazené, je zase velmi typické pro Ramones, kteří ho použili například v Rockaway Beach a tyto akordy rovněž tvoří úvodní riff skladby vůbec nejznámější, Blitzkrieg Bop!
Klasické L se většinou orientuje směrem k tělu kytary, ale existují samozřejmě i varianta v opačném gardu, tedy směrem k hlavě. Ten můžeme slyšet například u Clash ve Stay Free (G-C-B-A), v jediné dnešním čtyřakordovém L. Případně jestli znáte song Pelikáni od E!E, i oni toto schéma použili.

Obrácené L:
e---------------------------------------
B---------------------------------------
G--9-9-9-9-9-9-9-7-7-7-7----------
D--9-9-9-9-9-9-9-7-7-7-7-7-7-7-7-
A--7-7-7-7-7-7-7-5-5-5-5-7-7-7-7-
E------------------------------5-5-5-5-

Druhá častá variantou je vlastně stejná, jen se hraje pozpátku, například E-D-A. Příkladem můžou být opět Green Day a Ramones. Úvodní riff Welcome To Paradise je založen právě na sledu zmíněných akordů. Stejně tak vyhrávka Teenage Lobotomy. Koncertní verze Knowledge, tak jednoduchá, že ji Green Day nechávají hrát fanoušky, rovněž tvoří obrácené L.

Ležaté L:
e-------------------------------------------
B-------------------------------------------
G--5-5-5-5--------------------------------
D--5-5-5-5-5-5-5-5-7-7-7-7-7-7-7-7--
A--3-3-3-3-5-5-5-5-7-7-7-7-7-7-7-7--
E-------------3-3-3-3-5-5-5-5-5-5-5-5--

Poslední častou variantou je takzvané ležaté L, hrané například sledem C-G-A v Ha-Ha You're Dead od Green Day. Ti použili tuhle méně obvyklou variantu punkového L i u Cigarettes &Valentines v poměrně rozmáchlé verzi F#-B-E (kterou ale můžete hrát i klasickým L, protože akord B se nachází hned pod akordem F#). Rovněž Clash při své předělávce Pressure Drop hráli úvodní riff schématem ležatého L jen v opačném gardu než Green Day, tedy směrem k hlavě.

Na závěr chci ještě dodat, že tento článek rozhodně nemá uvedené muzikanty zesměšňovat nebo znehodnocovat hudbu tvořenou uvedenými schématy. Nepředpokládám, že by si to někdo takhle vyožil, ale lidská představivost má někdy vážně křídla. Punkové L se používá často, a to z prostého důvodu: je jednoduché a přitom velmi melodické. A určitě ho nenajdeme jen v punku…

Výběrový seznam punkových songů obsahujících punkové L:

RAMONES:

GREEN DAY:

CLASH:

DEAD KENNEDYS:

PATTI SMITH GROUP

HEARTBREAKERS

E!E
 

Buď první, kdo ohodnotí tento článek.

Nový komentář

Přihlásit se
  Ještě nemáte vlastní web? Můžete si jej zdarma založit na Blog.cz.
 

Aktuální články

Reklama