Jak zahrát: Pumping (My Heart) od Patti Smith Group (TAB)

7. září 2016 v 19:52 | C Jay |  Kytarový koutek
Tenhle příspěvek je určen především kytaristům a milovníkům Patti Smith a její grupy! Tuhle tabulaturu jsem původně nahrál na jeden z největších kytarových webů, na Ultimate guitar.com, tam o ni ale nestáli, tak se radši podělím s vámi!

Pumping (My Heart) najdeme na druhé stuiovém albu Patti Smithové Radio Ethiopia a pro mě osobně je to nejlepší skladba téhle desky. Oproti ostatním je laděna více rockově s jasnou ambicí bodovat i u širší veřejnosti. Patti s ní dodnes vystupuje na koncertech, i když se mezi její velké hity neřadí. Na netu neexistuje žádná tabulatura, takže jsem se rozhodl ji vytvořit. Obkoukal jsem ji především z živých koncertů. Ty nejsou na YT často v oslnivé kvalitě, takže jsem se mohl dopustit chyby… ale přehrával jsem si to, a znělo mi to dobře.
Jako většina songů od patti Smith Group je i tenhle poměrně jednoduchý a rytmická kytara nevyžaduje zvláštní schopnosti, postačí klasický power akord. Píseň má čtyři části: intro, sloku, refrén a bridge (out)i!

Intro:
e----------------------------------------------------------
B----------------------------------------------------------
G---6-x---------4-x------------6-x---------4-x-------
D---6-x-4-4-4--4-x-2-2-2----6-x-4-4-4--4-x-2-2-2-
A---4-x-4-4-4--2-x-0-0-0----4-x-4-4-4--2-x-0-0-0-
E--------2-2-2-------0-0-0---------2-2-2-------0-0-0-

Intro je poznávacím znakem celé písně, ale zazní jen na začátku.

Sloka:
e------------------------------------------------------------------------------------
B------------------------------------------------------------------------------------
G---6--4--6--4-4-4---6--4--6--4-4-4---6--4--6--4-4-4---6--4--6--4-4-4---
D---6--4--6--4-4-4---6--4--6--4-4-4---6--4--6--4-4-4---6--4--6--4-4-4----
A---4-----4---2-2-2---4-----4--2-2-2---4-----4---2-2-2--4------4--2-2-2----
E------------------------------------------------------------------------------------

Sloka je velice jednoduchá, nejde ale úplně přesně se zpěvem, takže ji člověk musí dostat nejdřív takzvaně do ruky. Mně osobně hodně pomohla tahle živá verze, kde Patti se zpěvem nenastupuje hned po intru, ale až po delší době, zatímco zbytek kapely hraje sloku:


Refrén (0:40-0:52):
e--------------------------------------------------------------------
B--------------------------------------------------------------------
G---6---6---6------6---6---6-----6---6---6------6---6---6-----
D---6---6---6------6---6---6-----6---6---6------6---6---6-----
A---4---4---4------4---4---4-----4---4---4------4---4---4-----
E---------------------------------------------------------------------

Refrén (nebo co to je) je supereasy, jen dokola opakovaný akord C#.

Bridge (2:08-do konce)
e---------------------------------------------------------------------------------------------------------
B--------------------------------------------------------------------------------------------------------
G--------------------------------------------------nebo takhle-------4--6--8--9----4--6--8--9--
D---9--11--13--14----9--11--13--14----------------------------------4--6--8--9----4--6--8--9--
A---9--11--13--14----9--11--13--14----------------------------------2--4--6--7----2--4--6--7--
E---7--9----11--12----7--9---11--12----------------------------------------------------------------

Píseň se v závěru mění, ale ani teď to není těžké, jak je vidět v tabulatuře. Jsou dvě možnosti jak tento part hrát. Tu první hraje kapela na koncertech. Druhou jsem upravil tak, aby se lépe pamatovala, protože používá stejné polohy akordů jako zbytek songu. Mně osobně ale zní líp verze možnost první, její zvuk je plnější a drsnější.

Co se týče sólové linky Ivana Krále, o té nemám absolutně páru, zas tak dobře odposlouchávat neumím… tedy zatím… třeba ji časem doplním. Ale i rytmická sekce je dobrá… tak nějak rozpumpuje srdce, nemám pravdu?
 

Buď první, kdo ohodnotí tento článek.

Nový komentář

Přihlásit se
  Ještě nemáte vlastní web? Můžete si jej zdarma založit na Blog.cz.
 

Aktuální články

Reklama